ISO-10303-21;
HEADER;
FILE_DESCRIPTION (( 'STEP AP203' ),
    '1' );
FILE_NAME ('Q-ZDWWP-R24-25.4-1064-SHM.STEP',
    '2020-12-22T09:02:07',
    ( '' ),
    ( '' ),
    'SwSTEP 2.0',
    'SolidWorks 2020',
    '' );
FILE_SCHEMA (( 'CONFIG_CONTROL_DESIGN' ));
ENDSEC;

DATA;
#1 = DATE_TIME_ROLE ( 'creation_date' ) ;
#2 = CARTESIAN_POINT ( 'NONE',  ( 3.000000000000000000, 1.836970198721029589E-15, -15.00000000000000000 ) ) ;
#3 = LOCAL_TIME ( 17, 2, 7.000000000000000000, #69 ) ;
#4 = PRODUCT_DEFINITION_SHAPE ( 'NONE', 'NONE',  #175 ) ;
#5 = AXIS2_PLACEMENT_3D ( 'NONE', #49, #100, #145 ) ;
#6 = EDGE_CURVE ( 'NONE', #42, #174, #125, .T. ) ;
#7 = DIRECTION ( 'NONE',  ( -1.000000000000000000, -0.000000000000000000, -0.000000000000000000 ) ) ;
#8 = MANIFOLD_SOLID_BREP ( 'Ðý×', #163 ) ;
#9 = APPROVAL_PERSON_ORGANIZATION ( #115, #169, #45 ) ;
#10 = DIRECTION ( 'NONE',  ( 1.000000000000000000, 0.000000000000000000, 0.000000000000000000 ) ) ;
#11 = ADVANCED_FACE ( 'NONE', ( #159 ), #19, .F. ) ;
#12 = EDGE_LOOP ( 'NONE', ( #50, #104 ) ) ;
#13 = VECTOR ( 'NONE', #110, 1000.000000000000000 ) ;
#14 = ADVANCED_FACE ( 'NONE', ( #117 ), #21, .T. ) ;
#15 = COORDINATED_UNIVERSAL_TIME_OFFSET ( 8, 0, .AHEAD. ) ;
#16 = ORGANIZATION ( 'UNSPECIFIED', 'UNSPECIFIED', '' ) ;
#17 = EDGE_LOOP ( 'NONE', ( #173, #41 ) ) ;
#18 = APPROVAL_DATE_TIME ( #165, #32 ) ;
#19 = PLANE ( 'NONE',  #66 ) ;
#20 = PERSON_AND_ORGANIZATION ( #43, #16 ) ;
#21 = CYLINDRICAL_SURFACE ( 'NONE', #22, 15.00000000000000000 ) ;
#22 = AXIS2_PLACEMENT_3D ( 'NONE', #139, #58, #30 ) ;
#23 = EDGE_LOOP ( 'NONE', ( #149, #146, #114, #129 ) ) ;
#24 = DIRECTION ( 'NONE',  ( 0.000000000000000000, 0.000000000000000000, -1.000000000000000000 ) ) ;
#25 = CC_DESIGN_DATE_AND_TIME_ASSIGNMENT ( #77, #54, ( #127 ) ) ;
#26 = PERSON_AND_ORGANIZATION_ROLE ( 'creator' ) ;
#27 = PERSON_AND_ORGANIZATION ( #43, #16 ) ;
#28 = APPROVAL_ROLE ( '' ) ;
#29 = EDGE_CURVE ( 'NONE', #42, #96, #168, .T. ) ;
#30 = DIRECTION ( 'NONE',  ( 0.000000000000000000, 0.000000000000000000, 1.000000000000000000 ) ) ;
#31 = DATE_AND_TIME ( #80, #105 ) ;
#32 = APPROVAL ( #74, 'UNSPECIFIED' ) ;
#33 = CARTESIAN_POINT ( 'NONE',  ( 3.000000000000000888, 12.69999999999999929, 0.000000000000000000 ) ) ;
#34 = CC_DESIGN_PERSON_AND_ORGANIZATION_ASSIGNMENT ( #61, #108, ( #166 ) ) ;
#35 = LOCAL_TIME ( 17, 2, 7.000000000000000000, #68 ) ;
#36 = AXIS2_PLACEMENT_3D ( 'NONE', #52, #7, #171 ) ;
#37 = PERSON_AND_ORGANIZATION ( #43, #16 ) ;
#38 = ORIENTED_EDGE ( 'NONE', *, *, #29, .T. ) ;
#39 = CARTESIAN_POINT ( 'NONE',  ( 3.000000000000000000, 0.000000000000000000, 15.00000000000000000 ) ) ;
#40 = CYLINDRICAL_SURFACE ( 'NONE', #130, 15.00000000000000000 ) ;
#41 = ORIENTED_EDGE ( 'NONE', *, *, #120, .T. ) ;
#42 = VERTEX_POINT ( 'NONE', #2 ) ;
#43 = PERSON ( 'UNSPECIFIED', 'UNSPECIFIED', 'UNSPECIFIED', ('UNSPECIFIED'), ('UNSPECIFIED'), ('UNSPECIFIED') ) ;
#44 = SECURITY_CLASSIFICATION_LEVEL ( 'unclassified' ) ;
#45 = APPROVAL_ROLE ( '' ) ;
#46 = PRODUCT_DEFINITION_FORMATION_WITH_SPECIFIED_SOURCE ( 'ANY', '', #166, .NOT_KNOWN. ) ;
#47 = AXIS2_PLACEMENT_3D ( 'NONE', #73, #144, #65 ) ;
#48 = FACE_OUTER_BOUND ( 'NONE', #17, .T. ) ;
#49 = CARTESIAN_POINT ( 'NONE',  ( -3.000000000000000000, 0.000000000000000000, 0.000000000000000000 ) ) ;
#50 = ORIENTED_EDGE ( 'NONE', *, *, #83, .F. ) ;
#51 = AXIS2_PLACEMENT_3D ( 'NONE', #126, #84, #160 ) ;
#52 = CARTESIAN_POINT ( 'NONE',  ( 3.000000000000000000, 0.000000000000000000, 0.000000000000000000 ) ) ;
#53 = APPROVAL_STATUS ( 'not_yet_approved' ) ;
#54 = DATE_TIME_ROLE ( 'classification_date' ) ;
#55 = PERSON_AND_ORGANIZATION ( #43, #16 ) ;
#56 = CIRCLE ( 'NONE', #5, 15.00000000000000000 ) ;
#57 = UNCERTAINTY_MEASURE_WITH_UNIT (LENGTH_MEASURE( 1.000000000000000082E-05 ), #142, 'distance_accuracy_value', 'NONE');
#58 = DIRECTION ( 'NONE',  ( -1.000000000000000000, -0.000000000000000000, -0.000000000000000000 ) ) ;
#59 = CC_DESIGN_APPROVAL ( #169, ( #127 ) ) ;
#60 = ADVANCED_BREP_SHAPE_REPRESENTATION ( 'Q-ZDWWP-R24-25.4-1064-SHM', ( #8, #47 ), #113 ) ;
#61 = PERSON_AND_ORGANIZATION ( #43, #16 ) ;
#62 = CARTESIAN_POINT ( 'NONE',  ( -1.614212418857619014, 1.836970198721029589E-15, -15.00000000000000000 ) ) ;
#63 = DIRECTION ( 'NONE',  ( -1.000000000000000000, -0.000000000000000000, -0.000000000000000000 ) ) ;
#64 = EDGE_LOOP ( 'NONE', ( #67, #38, #161, #133 ) ) ;
#65 = DIRECTION ( 'NONE',  ( 1.000000000000000000, 0.000000000000000000, 0.000000000000000000 ) ) ;
#66 = AXIS2_PLACEMENT_3D ( 'NONE', #33, #151, #92 ) ;
#67 = ORIENTED_EDGE ( 'NONE', *, *, #6, .F. ) ;
#68 = COORDINATED_UNIVERSAL_TIME_OFFSET ( 8, 0, .AHEAD. ) ;
#69 = COORDINATED_UNIVERSAL_TIME_OFFSET ( 8, 0, .AHEAD. ) ;
#70 = COORDINATED_UNIVERSAL_TIME_OFFSET ( 8, 0, .AHEAD. ) ;
#71 = COORDINATED_UNIVERSAL_TIME_OFFSET ( 8, 0, .AHEAD. ) ;
#72 = DIRECTION ( 'NONE',  ( -1.000000000000000000, -0.000000000000000000, -0.000000000000000000 ) ) ;
#73 = CARTESIAN_POINT ( 'NONE',  ( 0.000000000000000000, 0.000000000000000000, 0.000000000000000000 ) ) ;
#74 = APPROVAL_STATUS ( 'not_yet_approved' ) ;
#75 = VERTEX_POINT ( 'NONE', #155 ) ;
#76 = LINE ( 'NONE', #88, #13 ) ;
#77 = DATE_AND_TIME ( #135, #35 ) ;
#78 = CC_DESIGN_APPROVAL ( #32, ( #175 ) ) ;
#79 = DATE_AND_TIME ( #137, #141 ) ;
#80 = CALENDAR_DATE ( 2020, 22, 12 ) ;
#81 = CARTESIAN_POINT ( 'NONE',  ( 3.000000000000000000, 0.000000000000000000, 0.000000000000000000 ) ) ;
#82 = PERSON_AND_ORGANIZATION ( #43, #16 ) ;
#83 = EDGE_CURVE ( 'NONE', #96, #42, #156, .T. ) ;
#84 = DIRECTION ( 'NONE',  ( -1.000000000000000000, -0.000000000000000000, -0.000000000000000000 ) ) ;
#85 = DESIGN_CONTEXT ( 'detailed design', #122, 'design' ) ;
#86 = CC_DESIGN_SECURITY_CLASSIFICATION ( #127, ( #46 ) ) ;
#87 =( NAMED_UNIT ( * ) PLANE_ANGLE_UNIT ( ) SI_UNIT ( $, .RADIAN. ) );
#88 = CARTESIAN_POINT ( 'NONE',  ( -1.614212418857619014, 0.000000000000000000, 15.00000000000000000 ) ) ;
#89 = PERSON_AND_ORGANIZATION_ROLE ( 'classification_officer' ) ;
#90 = ADVANCED_FACE ( 'NONE', ( #48 ), #97, .F. ) ;
#91 = PERSON_AND_ORGANIZATION_ROLE ( 'creator' ) ;
#92 = DIRECTION ( 'NONE',  ( -0.000000000000000000, 0.000000000000000000, 1.000000000000000000 ) ) ;
#93 = APPROVAL_STATUS ( 'not_yet_approved' ) ;
#94 = CC_DESIGN_APPROVAL ( #172, ( #46 ) ) ;
#95 =( NAMED_UNIT ( * ) SI_UNIT ( $, .STERADIAN. ) SOLID_ANGLE_UNIT ( ) );
#96 = VERTEX_POINT ( 'NONE', #39 ) ;
#97 = PLANE ( 'NONE',  #128 ) ;
#98 = EDGE_CURVE ( 'NONE', #75, #174, #56, .T. ) ;
#99 = DIRECTION ( 'NONE',  ( -1.000000000000000000, -0.000000000000000000, -0.000000000000000000 ) ) ;
#100 = DIRECTION ( 'NONE',  ( -1.000000000000000000, -0.000000000000000000, -0.000000000000000000 ) ) ;
#101 = VECTOR ( 'NONE', #99, 1000.000000000000000 ) ;
#102 = APPROVAL_DATE_TIME ( #79, #169 ) ;
#103 = EDGE_CURVE ( 'NONE', #96, #75, #76, .T. ) ;
#104 = ORIENTED_EDGE ( 'NONE', *, *, #29, .F. ) ;
#105 = LOCAL_TIME ( 17, 2, 7.000000000000000000, #15 ) ;
#106 = PERSON_AND_ORGANIZATION_ROLE ( 'design_supplier' ) ;
#107 = APPROVAL_PERSON_ORGANIZATION ( #55, #172, #28 ) ;
#108 = PERSON_AND_ORGANIZATION_ROLE ( 'design_owner' ) ;
#109 = CARTESIAN_POINT ( 'NONE',  ( -3.000000000000000000, 1.836970198721029589E-15, -15.00000000000000000 ) ) ;
#110 = DIRECTION ( 'NONE',  ( -1.000000000000000000, -0.000000000000000000, -0.000000000000000000 ) ) ;
#111 = CC_DESIGN_PERSON_AND_ORGANIZATION_ASSIGNMENT ( #20, #106, ( #46 ) ) ;
#112 = APPLICATION_PROTOCOL_DEFINITION ( 'international standard', 'config_control_design', 1994, #132 ) ;
#113 =( GEOMETRIC_REPRESENTATION_CONTEXT ( 3 ) GLOBAL_UNCERTAINTY_ASSIGNED_CONTEXT ( ( #57 ) ) GLOBAL_UNIT_ASSIGNED_CONTEXT ( ( #142, #87, #95 ) ) REPRESENTATION_CONTEXT ( 'NONE', 'WORKASPACE' ) );
#114 = ORIENTED_EDGE ( 'NONE', *, *, #98, .F. ) ;
#115 = PERSON_AND_ORGANIZATION ( #43, #16 ) ;
#116 = CALENDAR_DATE ( 2020, 22, 12 ) ;
#117 = FACE_OUTER_BOUND ( 'NONE', #64, .T. ) ;
#118 = DATE_AND_TIME ( #116, #3 ) ;
#119 = DIRECTION ( 'NONE',  ( 0.000000000000000000, 0.000000000000000000, 1.000000000000000000 ) ) ;
#120 = EDGE_CURVE ( 'NONE', #174, #75, #148, .T. ) ;
#121 = LOCAL_TIME ( 17, 2, 7.000000000000000000, #70 ) ;
#122 = APPLICATION_CONTEXT ( 'configuration controlled 3d designs of mechanical parts and assemblies' ) ;
#123 = MECHANICAL_CONTEXT ( 'NONE', #132, 'mechanical' ) ;
#124 = FACE_OUTER_BOUND ( 'NONE', #23, .T. ) ;
#125 = LINE ( 'NONE', #62, #101 ) ;
#126 = CARTESIAN_POINT ( 'NONE',  ( -3.000000000000000000, 0.000000000000000000, 0.000000000000000000 ) ) ;
#127 = SECURITY_CLASSIFICATION ( '', '', #44 ) ;
#128 = AXIS2_PLACEMENT_3D ( 'NONE', #158, #10, #24 ) ;
#129 = ORIENTED_EDGE ( 'NONE', *, *, #103, .F. ) ;
#130 = AXIS2_PLACEMENT_3D ( 'NONE', #157, #63, #147 ) ;
#131 = AXIS2_PLACEMENT_3D ( 'NONE', #81, #72, #119 ) ;
#132 = APPLICATION_CONTEXT ( 'configuration controlled 3d designs of mechanical parts and assemblies' ) ;
#133 = ORIENTED_EDGE ( 'NONE', *, *, #120, .F. ) ;
#134 = APPROVAL_DATE_TIME ( #31, #172 ) ;
#135 = CALENDAR_DATE ( 2020, 22, 12 ) ;
#136 = SHAPE_DEFINITION_REPRESENTATION ( #4, #60 ) ;
#137 = CALENDAR_DATE ( 2020, 22, 12 ) ;
#138 = PRODUCT_RELATED_PRODUCT_CATEGORY ( 'detail', '', ( #166 ) ) ;
#139 = CARTESIAN_POINT ( 'NONE',  ( -1.614212418857619014, 0.000000000000000000, 0.000000000000000000 ) ) ;
#140 = CC_DESIGN_PERSON_AND_ORGANIZATION_ASSIGNMENT ( #82, #89, ( #127 ) ) ;
#141 = LOCAL_TIME ( 17, 2, 7.000000000000000000, #71 ) ;
#142 =( LENGTH_UNIT ( ) NAMED_UNIT ( * ) SI_UNIT ( .MILLI., .METRE. ) );
#143 = CC_DESIGN_PERSON_AND_ORGANIZATION_ASSIGNMENT ( #27, #26, ( #175 ) ) ;
#144 = DIRECTION ( 'NONE',  ( 0.000000000000000000, 0.000000000000000000, 1.000000000000000000 ) ) ;
#145 = DIRECTION ( 'NONE',  ( 0.000000000000000000, 0.000000000000000000, 1.000000000000000000 ) ) ;
#146 = ORIENTED_EDGE ( 'NONE', *, *, #6, .T. ) ;
#147 = DIRECTION ( 'NONE',  ( 0.000000000000000000, 0.000000000000000000, 1.000000000000000000 ) ) ;
#148 = CIRCLE ( 'NONE', #51, 15.00000000000000000 ) ;
#149 = ORIENTED_EDGE ( 'NONE', *, *, #83, .T. ) ;
#150 = PERSON_AND_ORGANIZATION ( #43, #16 ) ;
#151 = DIRECTION ( 'NONE',  ( -1.000000000000000000, 0.000000000000000000, -0.000000000000000000 ) ) ;
#152 = CALENDAR_DATE ( 2020, 22, 12 ) ;
#153 = CC_DESIGN_PERSON_AND_ORGANIZATION_ASSIGNMENT ( #150, #91, ( #46 ) ) ;
#154 = ADVANCED_FACE ( 'NONE', ( #124 ), #40, .T. ) ;
#155 = CARTESIAN_POINT ( 'NONE',  ( -3.000000000000000000, 0.000000000000000000, 15.00000000000000000 ) ) ;
#156 = CIRCLE ( 'NONE', #36, 15.00000000000000000 ) ;
#157 = CARTESIAN_POINT ( 'NONE',  ( -1.614212418857619014, 0.000000000000000000, 0.000000000000000000 ) ) ;
#158 = CARTESIAN_POINT ( 'NONE',  ( -3.000000000000000888, 12.69999999999999929, 0.000000000000000000 ) ) ;
#159 = FACE_OUTER_BOUND ( 'NONE', #12, .T. ) ;
#160 = DIRECTION ( 'NONE',  ( 0.000000000000000000, 0.000000000000000000, 1.000000000000000000 ) ) ;
#161 = ORIENTED_EDGE ( 'NONE', *, *, #103, .T. ) ;
#162 = CC_DESIGN_DATE_AND_TIME_ASSIGNMENT ( #118, #1, ( #175 ) ) ;
#163 = CLOSED_SHELL ( 'NONE', ( #154, #11, #14, #90 ) ) ;
#164 = APPROVAL_ROLE ( '' ) ;
#165 = DATE_AND_TIME ( #152, #121 ) ;
#166 = PRODUCT ( 'Q-ZDWWP-R24-25.4-1064-SHM', 'Q-ZDWWP-R24-25.4-1064-SHM', '', ( #123 ) ) ;
#167 = APPROVAL_PERSON_ORGANIZATION ( #37, #32, #164 ) ;
#168 = CIRCLE ( 'NONE', #131, 15.00000000000000000 ) ;
#169 = APPROVAL ( #93, 'UNSPECIFIED' ) ;
#170 = APPLICATION_PROTOCOL_DEFINITION ( 'international standard', 'config_control_design', 1994, #122 ) ;
#171 = DIRECTION ( 'NONE',  ( 0.000000000000000000, 0.000000000000000000, 1.000000000000000000 ) ) ;
#172 = APPROVAL ( #53, 'UNSPECIFIED' ) ;
#173 = ORIENTED_EDGE ( 'NONE', *, *, #98, .T. ) ;
#174 = VERTEX_POINT ( 'NONE', #109 ) ;
#175 = PRODUCT_DEFINITION ( 'UNKNOWN', '', #46, #85 ) ;
ENDSEC;
END-ISO-10303-21;
